AllText Рус / Eng В начало Новые Лучшие Добавить
# A B C D E F G H I J K L M N O P Q R S T U V W X Y Z
А Б В Г Д Е Ё Ж З И К Л М Н О П Р С Т У Ф Х Ц Ч Ш Щ Э Ю Я



 Другие песни Черный Обелиск
 Поиск Черный Обелиск

  Альбом: unknown
  Добавил: Unknown
  Дата: 2008-01-01
  Тип: текст песни и табы (аккорды) для гитары
  Просмотров сегодня: 1, с понедельника : 1.

G                                    em|-----------

|-----------
|-----------
|-----2-----
|-----2-----
|-----------
Em
Чувство знакомое, холод бежит по спине,
G d|---2------
|-----3----
|---2------
|----------
|----------
|----------D em|-----------
|-----------
|-----------
|-----2-----
|-----2-----
|-----------
Em
Чувство преграды, я внов приближаюсь к стене,
G d|---2------
|-----3----
|---2------
|----------
|----------
|----------D
Снова на камень рука натыкается: Стой!
G d|---2------
|-----3----
|---2------
|----------
|----------
|----------D em|-----------
|-----------
|-----------
|-----2-----
|-----2-----
|-----------
Em
Снова стена предлагает вступить с нею в бой.

g
|------3---
|----------
|----------
|----------
|----2-----
|------3---G d|---2------
|-----3----
|---2------
|----------
|----------
|----------D em|-----------
|-----------
|-----------
|-----2-----
|-----2-----
|-----------
Em
Припев Серой громадою высится над головой.
Годы проходят, стена остается стеной.
Сколько потерянных лиц отражает она.
g
|------3---
|----------
|----------
|----------
|----2-----
|------3---G d|---2------
|-----3----
|---2------
|----------
|----------
|----------D a|----------
|---2------
|---2------
|---2------
|----------
|----------A a|----------
|---2------
|---2------
|---2------
|----------
|----------A asus2|---------
|---------
|--2------
|--2------
|---------
|---------asus|---------
|----3----
|--2------
|--2------
|---------
|---------
Asus2 a|----------
|---2------
|---2------
|---2------
|----------
|----------A em|-----------
|-----------
|-----------
|-----2-----
|-----2-----
|-----------
Em
Сколько потерянных лет за стеной... Стена!

В камень шершавый впиваются руки с тоской,
Как в лихорадке бурлит муравейник людской.
Яркие вспышки на сумрачном небе видны,
Блики ложатся на скривленный гребень стены.

Припев


Черный Обелиск - Пятая Песня - текст песни и табы (аккорды) для гитары
Черный Обелиск - Пятая Песня - текст песни и аккорды для гитары
Черный Обелиск - 96+415 - текст песни и аккорды для гитары
Черный Обелиск - Черный Обелиск - текст песни и аккорды для гитары
Черный Обелиск - Черный Обелиск - текст песни и табы (аккорды) для гитары
Поиск
по исполнителю и названию

По словам из текста
Используйте редкие слова


Инфо

Поставь эту фишку у себя
на сайте или в блоге!

Дополнительно
vote 1 2 3 4 5
Текущий рейтинг: Нет голосов
Голосов: 0
Форум
Версия для печатиprint

Счетчики

Valid HTML 4.01 Transitional